And One // Гитара

30.04.2008
A ^ under tab means palm mute.
Tuning: D-A-D-G-B-E
“Where should I start?”
E---------------------------------------------------------
B---------------------------------------------------------
G-------------------------13------------------------------
D-----------------------------------------------------11--
A--4-4-4--4--7-7-7--7-7--------4-4-4--4--7-7-7--7-7-------
D--6-6-6--6--7-7-7--7-7--------6-6-6--6--7-7-7--7-7-------
^ ^ ^ ^ ^ ^ ^ ^ ^ ^ ^ ^ ^ ^ ^ ^ ^ ^
Around “If anger's a gift…”, the 'possible harmonics' go like this:
E-----|----|-----
B-----|----|-----
G--13-|-11-|-----
D-----|----|-11--
A-----|----|-----
D-----|----|-----
“Keep it locked up inside…”
E-----------------------
B-----------------------
G-----------------------
D--------7-----2-----0--
A--4-----7-----2-----0--
D--6-----7-----2-----0--
When it slows down: “It's too late…”
E-------------------------|-----------------------------
B-------------------------|-----------------------------
G--9-8---6----------------|--9-8h9h8---6----------------
D----------9--------------|--------------9--------------
A--------------7-9---6-7--|------------------7-9---6-9--
D-------------------------|-----------------------------
Gtr 2. during 'softer' “Breaking a part of my heart…” section:
E--------------------------------
B----------------14--------------
G--13------13--------13--11------
D------11--------------------11--
A--------------------------------
D--------------------------------
During 'harder' “Breaking a part of my heart…” and “Keep my distance” section:
E-------------------|----------------------------|-----
B-------------------|----------------------------|-----
G-------------------|----------------------------|-----
D---------2--/--11--|-------------------------9--|-----
A--4-4-4--2--/--11--|--4----4-4-4--2-2-2-2-2-----|--8--
D--6-6-6--2--/--11--|--6----6-6-6--2-2-2-2-2-----|-----
^ ^ ^ ^ ^ ^ ^ ^ ^ ^ ^
+ + + + + + + + + + + + + + + + + + + + + + + + + + + + + + + + + + + +
Tuning: C#-G#-C#-F#-Bb-Eb
“Where should I start?”
Eb---------------------------------------------------------
Bb---------------------------------------------------------
F#-------------------------14------------------------------
C#-----------------------------------------------------12--
G#--0-0-0--0--8-8-8--8-8--------0-0-0--0--8-8-8--8-8-------
C#--0-0-0--0--8-8-8--8-8--------0-0-0--0--8-8-8--8-8-------
^ ^ ^ ^ ^ ^ ^ ^ ^^ ^ ^ ^ ^ ^ ^ ^ ^
Around “If anger's a gift…”, the higher notes go like this:
Eb-----|----|-----
Bb-----|----|-----
F#--14-|-12-|-----
C#-----|----|-12--
G#-----|----|-----
C#-----|----|-----
“Keep it locked up inside…”
Eb-----------------------
Bb-----------------------
F#-----------------------
C#--0-----8-----3-----1--
G#--0-----8-----3-----1--
C#--0-----8-----3-----1--
When it slows down (1st time): Rest of time:
Eb----------------------------|----------------------------------
Bb----------------------------|----------------------------------
F#--10-9---7------------------|--10-9h10h9---7-------------------
C#-----------10---------------|----------------10----------------
G#----------------8-10---7-8--|---------------------8-10---7-10--
C#----------------------------|----------------------------------
Gtr 2. during 'softer' “Breaking a part of my heart…” section:
Eb--------------------------------
Bb----------------15--------------
F#--14------14--------14--12------
C#------12--------------------12--
G#--------------------------------
C#--------------------------------
During 'harder' “Breaking a part of my heart…” and “Keep my distance” section:
Eb-------------------|-----------------------------|-----
Bb-------------------|-----------------------------|-----
F#-------------------|-----------------------------|-----
C#---------3--/--12--|--0----------------------10--|-----
G#--0-0-0--3--/--12--|--0----0-0-0--3-3-3-3-3------|--9--
C#--0-0-0--3--/--12--|--0----0-0-0--3-3-3-3-3------|-----
^ ^ ^ ^ ^ ^ ^ ^ ^ ^ ^
+ + + + + + + + + + + + + + + + + + + + + + + + + + + + + + + + + + + +
Tuning: Standard
“Where should I start?”
E---------------------------------------------------------
B---------------------------------------------------------
G-------------------------13------------------------------
D-----------------------------------------------------11--
A--4-4-4--4--7-7-7--7-7--------4-4-4--4--7-7-7--7-7-------
E--4-4-4--4--5-5-5--5-5--------4-4-4--4--5-5-5--5-5-------
^ ^ ^ ^ ^ ^ ^ ^ ^ ^ ^ ^ ^ ^ ^ ^ ^ ^
Around “If anger's a gift…”, the 'possible harmonics' go like this:
E-----|----|-----
B-----|----|-----
G--13-|-11-|-----
D-----|----|-11--
A-----|----|-----
E-----|----|-----
“Keep it locked up inside…”
E-----------------------
B-----------------------
G-----------------------
D--------7-----2--------
A--4-----7-----2-----5--
E--4-----5-----0-----5--
When it slows down: “It's too late…”
E-------------------------|-----------------------------
B-------------------------|-----------------------------
G--9-8---6----------------|--9-8h9h8---6----------------
D----------9--------------|--------------9--------------
A--------------7-9---6-7--|------------------7-9---6-9--
E-------------------------|-----------------------------
Gtr 2. during 'softer' “Breaking a part of my heart…” section:
E--------------------------------
B----------------14--------------
G--13------13--------13--11------
D------11--------------------11--
A--------------------------------
E--------------------------------
During 'harder' “Breaking a part of my heart…” and “Keep my distance” section:
E-------------------|----------------------------|-----
B-------------------|----------------------------|-----
G-------------------|----------------------------|-----
D---------2--/--11--|-------------------------9--|-----
A--4-4-4--2--/--11--|--4----4-4-4--2-2-2-2-2-----|--8--
E--4-4-4--0--/--9---|--4----4-4-4--0-0-0-0-0-----|-----
^ ^ ^ ^ ^ ^ ^ ^ ^ ^ ^


ВВЕРХ

Назад

Новости Информация Скачать Форум Магазин Фотогалерея Архив О сайте Ссылки Linkin Park Dead By Sunrise Projekt Revolution 8-bit Rebellion Магазин дисков Street Team Группы ВКонтакте