Breaking The Habit // Гитара

01.05.2008
Intro
e--0--5-3-2-0--|-0-3-2-0--0--5-3-2-0--
B-------------o|--4-------------------
G--------------|----------------------
D-------------o|----------------------
A--------------|----------------------
E--------------|----------------------
Verse
e---------------------------
B--0--2-3-0-0--0-1-1-0-0----
G---------------------------
D---------------------------
A---------------------------
E---------------------------

Chorus
e----------------
B-0--5-3-3-5
G---------------
D---------------
A---------------
E---------------


ВВЕРХ

Назад

Новости Информация Скачать Форум Магазин Фотогалерея Архив О сайте Ссылки Linkin Park Dead By Sunrise Projekt Revolution 8-bit Rebellion Магазин дисков Street Team Группы ВКонтакте