By Myself // Гитара

01.05.2008
Dropped D, Down 1/2 Step
Intro and Bridge:
Eb|--------N.H.-----------|
Bb|--------(7)------------|
A#|-----------------------|
C#|--7--7------0-0--1--0--|
G#|--7--7------0-0--1--0--|
C#|--7--7------0-0--1--0--|
PM.... ...
Chorus:
Eb|--------------------|
Bb|--------------------|
A#|--------------------|
C#|--7----7--x-3--x-0--|
G#|--7----7--x-3--x-0--|
C#|--7----7--x-3--x-0--|
Interlude:
Eb|---------------------------|
Bb|---------------------------|
A#|---------------------------|
C#|--3--3----3-3----0---0-----|
G#|--3--3----3-3----0---0-----|
C#|--3--3----3-3----0---0-----|
PM.......................
-------------------------------------


ВВЕРХ

Назад

Новости Информация Скачать Форум Магазин Фотогалерея Архив О сайте Ссылки Linkin Park Dead By Sunrise Projekt Revolution 8-bit Rebellion Магазин дисков Street Team Группы ВКонтакте