Carousel // Гитара

30.04.2008
Intro (Flanger)
-------------------
-------------------
----9--------------
------9------------
--7-----7-8-8-8-7--
-------------------
Chorus
-----------------------------------------------------
-----------------------------------------------------
-----------------------------------------------------
--2-2-2--2-----3-3-3--3-----2-2-2--2-----3-3-3--3--
--2-2-2--2-----3-3-3--3-----2-2-2--2-----3-3-3--3--
--2-2-2--2-----3-3-3--3-----2-2-2--2-----3-3-3--3--
. . . . . . . . . . . . . . . .
Bridge
-----------------------------------------------
-----------------------------------------------
-----------------------------------------------
--2-2-2--2---2-2-2--2---2-2-2--2---2-2-2--2--
--2-2-2--2---2-2-2--2---2-2-2--2---2-2-2--2--
--2-2-2--2---2-2-2--2---2-2-2--2---2-2-2--2--
. . . . . . . . . . . . . . . .
End on…
------------
------------
------------
--2-2-2--2--
--2-2-2--2--
--2-2-2--2--
. . . .


ВВЕРХ

Назад

Новости Информация Скачать Форум Магазин Фотогалерея Архив О сайте Ссылки Linkin Park Dead By Sunrise Projekt Revolution 8-bit Rebellion Магазин дисков Street Team Группы ВКонтакте