Don't Stay // Гитара

01.05.2008
Intro:
D#|-----------------------------------|
A#|-----------------------------------|
F#|-----------------------------------|
C#|-6-6-6-6--2--4-4-4--7--6-----------|
G#|-4-4-4-6--2--4-4-4--7--6-----------|
C#|-6-6-6-6--2--4-4-4--7--6-----------|
D#|----------------------------------|
A#|----------------------------------|
F#|----------------------------------|
C#|-6-6-6-6--2--0-0-0-0-0------------|
G#|-4-4-4-6--2--0-0-0-0-0------------|
C#|-6-6-6-6--2--0-0-0-0-0------------|
Chorus
D#|------------------------------|
A#|------------------------------|
F#|------------------------------|
C#|-6-6--7--9--4--6--2--0--------|
G#|-4-6--7--9--4--6--2--0--------|
C#|-6-6--7--9--4--6--2--0--------|
Bridge
D#|---------------------------------------------------|
A#|----------------12-12-12-12-12-12-15---------------|
F#|----------------x--x--x--x--x--x--x----------------|
C#|-6-6-6-6--7-7---9--9--9--9--9--9--12---------------|
G#|-4-4-4-4--5-5--------------------------------------|
C#|-6-6-6-6--7-7--------------------------------------|
D#|------------------------------------------------------|
A#|------------------------------------------------------|
F#|------------------------------------------------------|
C#|-6-6-6-6--7-7--0-0-0-0-0-0-0-0-0-0-0-0....------------|
G#|-4-4-4-4--5-5--0-0-0-0-0-0-0-0-0-0-0-0....------------|
C#|-6-6-6-6--7-7--0-0-0-0-0-0-0-0-0-0-0-0....------------|
Faint
Gt. 1:Intro and Chorus
Eb|-----------------------------------
Bb|-----------------------------------
Gb|-----------------------------------
Db|-0-0--7--5--5-5--7--3------------------------
Ab|-0-0--7--5--5-5--7--3-----------------------
Db|-0-0--7--5--5-5--7--3-----------------------
Gt. 2: Intro and Chorus
|play at start|
|of intro |
Eb|-------------|
Bb|-------------|
Gb|--7-7-7-7----|
Db|--X-X-X-X----|
Ab|--5-5-5-5----|
Db|-------------|
Eb|------------------------------------------
Bb|-------------------|----------------------
Gb|-7-7-7/14-14
-12-|-12-12-12/14-14-10-
Db|-X-X-X/X--X-\X--X--|-X--X--X-/X--X-\X--X--
Ab|-5-5-5/12-12-10-|-10-10-10/12-12\8--8--
Db|-------------------|----------------------
Both guitars:Verse
Eb|-----------------------------------
Bb|-----------------------------------
Gb|-----------------------------------
Db|-2-2--2-2--2-2--7-7--5-5-----------
Ab|-2-2--2-2--2-2--7-7--5-5-----------
Db|-2-2--2-2--2-2--7-7--5-5-----------
Both guitars:Interlude
Eb|-----------------------------------
Bb|-----------------------------------
Gb|-----------------------------------
Db|-0-7-5-2-3-2------------------------------
Ab|-0-7-5-2-3-2-----------------------------
Db|-0-7-5-2-3-2-----------------------------


ВВЕРХ

Назад

Новости Информация Скачать Форум Магазин Фотогалерея Архив О сайте Ссылки Linkin Park Dead By Sunrise Projekt Revolution 8-bit Rebellion Магазин дисков Street Team Группы ВКонтакте