Easier To Run // Гитара

01.05.2008
x = Mute note
Intro
Eb|---------------------------------------|
Bb|----0x-0x------8----8x-7x------10------|
Gb|-----------0x--------------0x----------| 4x
Db|---------------------------------------|
Ab|---------------------------------------|
Db|---------------------------------------|
Chorus
Eb|------------------------------------|
Bb|------------------------------------|
Gb|------------------------------------| 2x
Db|----2-------5-------7-------4-------|
Ab|----2-------5-------7-------4-------|
Db|----2-------5-------7-------4-------|
Verse 1
Eb|---------------------------------------|
Bb|----0x-0x------8----8x-7x------10------|
Gb|-----------0x--------------0x----------| 9x
Db|---------------------------------------|
Ab|---------------------------------------|
Db|---------------------------------------|
Chorus
Eb|------------------------------------|
Bb|------------------------------------|
Gb|------------------------------------| 2x
Db|----2-------5-------7-------4-------|
Ab|----2-------5-------7-------4-------|
Db|----2-------5-------7-------4-------|
Verse 2
Eb|---------------------------------------|
Bb|----0x-0x------8----8x-7x------10------|
Gb|-----------0x--------------0x----------| 8x
Db|---------------------------------------|
Ab|---------------------------------------|
Db|---------------------------------------|
Bridge
Eb|-------------------------------------|
Bb|-------------------------------------|
Gb|-------------------------------------|
Db|----5-------7-------9-------4--------|
Ab|----5-------7-------9-------4--------|
Db|----5-------7-------9-------4--------|
Eb|-------------------------------------|
Bb|-------------------------------------|
Gb|-------------------------------------|
Db|----5-------7-------7-------7--------|
Ab|----5-------7-------7-------7--------|
Db|----5-------7-------7-------7--------|
Chorus
Eb|------------------------------------|
Bb|------------------------------------|
Gb|------------------------------------| 4x
Db|----2-------5-------7-------4-------|
Ab|----2-------5-------7-------4-------|
Db|----2-------5-------7-------4-------|
Eb|----------------------------------------------------------|
Bb|----------------------------------------------------------|
Gb|----11-11-11-11-11-11-11-11-11-11-11-11-11-11-11-11-------|
Db|-----x--x--x--x--x--x--x--x--x--x--x--x--x--x--x--x-------|
Ab|-----9--9--9--9--9--9--9--9--9--9--9--9--9--9--9--9-------|
Db|----------------------------------------------------------|
Eb|---------|
Bb|---------|
Gb|----7----|
Db|----x----|
Ab|----5----|
Db|---------|


ВВЕРХ

Назад

Новости Информация Скачать Форум Магазин Фотогалерея Архив О сайте Ссылки Linkin Park Dead By Sunrise Projekt Revolution 8-bit Rebellion Магазин дисков Street Team Группы ВКонтакте