Faint // Гитара

01.05.2008
Intro
Eb|-----------|
Bb|-----------|
Gb|--7-7-7-7--|
Db|--X-X-X-X--|
Ab|--5-5-5-5--|
Db|-----------|
Chorus (guitar 1)
Eb|-------------------|----------------------|
Bb|-------------------|----------------------|
Gb|-7-7-7/14-14
-12-|-12-12-12/14-14-10-|
Db|-X-X-X/X--X-\X--X--|-X--X--X-/X--X-\X--X--|
Ab|-5-5-5/12-12-10-|-10-10-10/12-12\8--8--|
Db|-------------------|----------------------|
Chorus (guitar 2)
Eb|-------------------|----------------------|
Bb|-------------------|----------------------|
Gb|-------------------|----------------------|
Db|-0-0-0-5--5---3--3-|-3--3--3-5--5---1--1--|
Ab|-0-0-0-5--5---3--3-|-3--3--3-5--5---1--1--|
Db|-0-0-0-5--5---3--3-|-3--3--3-5--5---1--1--|
Eb|-------------------|----------------------|
Bb|-------------------|----------------------|
Gb|-------------------|----------------------|
Db|-0-0-0-7--7---5--5-|-5--5--5-7--7---3--3--|
Ab|-0-0-0-7--7---5--5-|-5--5--5-7--7---3--3--|
Db|-0-0-0-7--7---5--5-|-5--5--5-7--7---3--3--|
Verse
Eb|------|------|--------|---------|------|----------|
Bb|------|------|--------|---------|------|----------|
Gb|------|------|--------|---------|------|-7-7-7-7--|
Db|-0----|-0----|-0-0----|-5-5-----|-7----|-X-X-X-X--|
Ab|-0----|-0----|-0-0----|-5-5-----|-7----|-5-5-5-5--|
Db|-0----|-0----|-0-0----|-5-5-----|-7----|----------|
Bridge (guitar 1)
Eb|-----------------|--------------|
Bb|-----------------|--------------|
Gb|-------------<5>-|--------------|
Db|-0-7-5-7-8-7-----|-0-7-5-7-8-7--|
Ab|-0-7-5-7-8-7-----|-0-7-5-7-8-7--|
Db|-0-7-5-7-8-7-----|-0-7-5-7-8-7--|
Bridge (guitar 2)
Eb|-----------------|--------------|
Bb|-----------------|--------------|
Gb|-----------------|--------------|
Db|-0-7-3-2-3-2-----|-0-7-3-2-3-2--|
Ab|-0-7-3-2-3-2-----|-0-7-3-2-3-2--|
Db|-0-7-3-2-3-2-----|-0-7-3-2-3-2--|


ВВЕРХ

Назад

Новости Информация Скачать Форум Магазин Фотогалерея Архив О сайте Ссылки Linkin Park Dead By Sunrise Projekt Revolution 8-bit Rebellion Магазин дисков Street Team Группы ВКонтакте