Figure.09 // Гитара

01.05.2008
intro
2 times
part 1 repeat first last
e|| ----------------------||-------------- ||------------------ ||
B|| ----------------------||-------------- ||------------------ ||
G||.--6------6------6----*||--------------.||------------------.||
D||.---------------------*||--------------.||------------------.||
A|| --4-4-7--4-4-7--4-4-7-||-4^5-4^5-4^5-- ||-4^5-5-5-5^4-5^4-- ||
E|| ----------------------||-------------- ||-4^5-5-5-5^4-5^4-- ||
part 2 2 times
e|| -------------------------------------------.||
B|| -------------------------------------------.||
G||.----6-------6-------6----------------------.||
D||.------6-------6-------6--------------------.||
A|| --4---7---4---7---4---7--4^5-5-5-5^4-5^4--- ||
E|| --4---0---4---0---4---0--4^5-5-5-5^4-5^4--- ||
main
part 1 2 times
e|| --------------------------------------------.||
B|| --------------------------------------------.||
G||.----6o-------6o------6o---------------------.||
D||.--------------------------------------------.||
A|| --4o------4o------4o------4^5-5-5-5^4-5^4--- ||
E|| --4o------4o------4o------4^5-5-5-5^4-5^4--- ||
o - mute after playing
part 2 2 times
e|| --------------------------------------------.||
B|| --------------------------------------------.||
G||.----6--------6-------6----------------------.||
D||.------6-------6-------6---------------------.||
A|| --4---7---4---7---4---7---4^5-5-5-5^4-5^4--- ||
E|| --4-------4-------4-------4^5-5-5-5^4-5^4--- ||
bridge
e|| ---------------------------- ||
B|| ---------------------------- ||
G||.----------------------------.||
D||.-------7-------7-------7----.||
A|| --4----7--4----7--4----7--4- ||
E|| --4-------4-------4-------4- ||
chorus
3 times
e|| ------------------------------------- ||
B|| ------------------------------------- ||
G||.-----------6-------------------------.||
D||.-----------6------7-------2-----4--6-.||
A|| -----------4------7-------2-----4--6- ||
E|| -----------4------5-------0-----2--4- ||
[and now...]
last time
e|| ------------------------------------- ||
B|| ------------------------------------- ||
G||.-----------6-----------------------7-.||
D||.-----------6------7-------2-----6--7-.||
A|| -----------4------7-------2-----6--5- ||
E|| -----------4------5-------0-----4--5- ||
[you become a part of me...]
...
intro part2
main
chorus
intro part1
...
second chorus
4 times
e|| --------------------------|------------------------- ||
B|| --------------------------|------------------------- ||
G||.--7--6--6--6/7/9--------|---7--6--6--6/7/9------.||
D||.--7--6--6--6/7/9--------|---7--6--6--6/7/9------.||
A|| --5--4--4--4/5/7----8---|---5--4--4--4/5/7----4- ||
E|| --5--4--4--4/5/7--------|---5--4--4--4/5/7------ ||
^ ^ ^ ^
P.M. P.M.
[Get away from me!
Give me my space back you gotta just
Go! ...]
chorus


ВВЕРХ

Назад

Новости Информация Скачать Форум Магазин Фотогалерея Архив О сайте Ссылки Linkin Park Dead By Sunrise Projekt Revolution 8-bit Rebellion Магазин дисков Street Team Группы ВКонтакте