Forgotten // Гитара

01.05.2008
Dropped D, Down 1/2 Step
--------------------------
Tuning (low to high): Db Ab Db Gb Bb Eb
x = mute
* = natural harmonic
p = pull off
/ = slide
All parts played with distortion, unless otherwise noted.
Riff 1:
Eb---------------------------------------------
Bb---------------------------------------------
Gb-----------------------------------7*-------
Db----3p2---2---2-2-2--2-3p2--2----7*-------
Ab----3p2---2---2-2-2--2-3p2--2--------------
Db----3p2---2---2-2-2--2-3p2--2--------------
Riff 2:
Eb--------------------------------------------
Bb--------------------------------------------
Gb--------------------------------------------
Db----3p2---2---2-2-2--2-3p2--2-------------
Ab----3p2---2---2-2-2--2-3p2--2-------------
Db----3p2---2---2-2-2--2-3p2--2-------------
Repeat Riff 1
Riff 3:
Eb--------------------------------------------
Bb--------------------------------------------
Gb--------------------------------------------
Db----3p2---2---2-2-2--2-3---3--2-2/5-------
Ab----3p2---2---2-2-2--2-3---3--2-2/5-------
Db----3p2---2---2-2-2--2-3---3--2-2/5-------
The verses are various combinations of the following two riffs:
Verse Riff 1: (clean, w/ delay)
Eb--------7----5-------------------------------
Bb------5---5----5----------8------------------
Gb-----------------5----5-7--------------------
Db----7---------------7------------------------
Ab---------------------------------------------
Db---------------------------------------------
Verse Riff 2: (clean, w/ delay)
Eb--------7----5--------------------------------
Bb------5---5----5-----------------8------------
Gb-----------------5-----7p5h7p5-7-------------
Db----7----------------7------------------------
Ab----------------------------------------------
Db----------------------------------------------
Repeat Riff 1 and Riff 3
Chorus: (4x)
Eb---------------------------------------------------------------
Bb---------------------------------------------------------------
Gb----------------9/10-10-10-x----------------------------------
Db----7---7--x-x--9/10-10-10-x--10--10--x-x-9h10-10-10--7-7---
Ab----7---7--x-x--7/8--8--8--x--10--10--x-x-9h10-10-10--7-7----
Db----7---7--x-x----------------10--10--x-x-9h10-10-10--7-7----
Return to Verse Riffs
Repeat - in this order - Riffs 1, 2, 1, and 3
Repeat Chorus (4x)
Bridge Riff 1: (2x)
Eb----------------------------------------------------------------
Bb----------------------------------------------------------------
Gb----------------------------------------------------------------
Db--3---3-3-3-3--3-3-3-2--3--5----------------------------------
Ab--3---3-3-3-3--3-3-3-2--3--5----------------------------------
Db--3---3-3-3-3--3-3-3-2--3--5----------------------------------
Bridge Riff 2: (2x)
Eb---------------------------------------------------------------
Bb---------------------------------------------------------------
Gb---------------------------------------------------------------
Db--7---7--7-7---5--7---3---3-3-3-3--3-3-3-2--3--5-------------
Ab--7---7--7-7---5--7---3---3-3-3-3--3-3-3-2--3--5-------------
Db--7---7--7-7---5--7---3---3-3-3-3--3-3-3-2--3--5-------------
Bridge Riff 3: (1x)
Eb------------------------------------------------------------------
Bb------------------------------------------------------------------
Gb------------------------------------------------------------------
Db--7---7--7-7---5--7---3---3-3-3-3--3-3-3-2--3--3--3----2----5--
Ab--7---7--7-7---5--7---3---3-3-3-3--3-3-3-2--3--3--3----2----5--
Db--7---7--7-7---5--7---3---3-3-3-3--3-3-3-2--3--3--3----2----5--
Repeat Chorus (8x - last time clean)


ВВЕРХ

Назад

Новости Информация Скачать Форум Магазин Фотогалерея Архив О сайте Ссылки Linkin Park Dead By Sunrise Projekt Revolution 8-bit Rebellion Магазин дисков Street Team Группы ВКонтакте