From The Inside // Гитара

01.05.2008
Intro
Eb|--------------------------|---------------------------------------|
Bb|-3-3-3-3-3-3--------------|---------------------------------------|
Gb|-2-2-2-2-2-2--------------|---------------------------------------|
Db|-0-0-0-0-0-0--3-3-3-3-3-3-|-8-8-8-8-8-8--5-5-5-5-5-5--7-7-7-7-7-7-|
Ab|-0-0-0-0-0-0--3-3-3-3-3-3-|-8-8-8-8-8-8--5-5-5-5-5-5--7-7-7-7-7-7-|
Db|-0-0-0-0-0-0--3-3-3-3-3-3-|-8-8-8-8-8-8--5-5-5-5-5-5--7-7-7-7-7-7-|
Verse
Eb|-7---7---7---7---|-5---5---5---5---|---------|
Bb|---5---5---5---5-|---7---7---7---7-|-6---6---|
Gb|-----------------|-----------------|---7---7-|
Db|-----------------|-----------------|---------|
Ab|-----------------|-----------------|---------|
Db|-----------------|-----------------|---------|
Pre-Chorus
Eb|-------------------------|
Bb|-------------------------|
Gb|-------------------------|
Db|-<5>-<5>-<5>-<5>-<5>-<5>-|
Ab|-<5>-<5>-<5>-<5>-<5>-<5>-|
Db|-<5>-<5>-<5>-<5>-<5>-<5>-|
Bridge (part 1)
Eb|-------------|
Bb|-------------|
Gb|-------------|
Db|-0--0-0-0--0-|
Ab|-0--0-0-0--0-|
Db|-0--0-0-0--0-|
Bridge (part 2)
Eb|-------------|
Bb|-------------|
Gb|-------------|
Db|-1--1-1-1--1-|
Ab|-1--1-1-1--1-|
Db|-1--1-1-1--1-|
Bridge (part 3/guitar 1)
Eb|--------------------------|
Bb|--------------------------|
Gb|--------------------------|
Db|-0--0-0-0--0--------------|
Ab|-0--0-0-0--0--<7>-----<5>-|
Db|-0--0-0-0--0------<5>-----|
Bridge (part 3/guitar 2)
Eb|-------------|
Bb|-------------|
Gb|-------------|
Db|-0--0-0-0--0-|
Ab|-0--0-0-0--0-|
Db|-0--0-0-0--0-|


ВВЕРХ

Назад

Новости Информация Скачать Форум Магазин Фотогалерея Архив О сайте Ссылки Linkin Park Dead By Sunrise Projekt Revolution 8-bit Rebellion Магазин дисков Street Team Группы ВКонтакте