High Voltage // Гитара

30.04.2008
Tuning: Dropped D one half step down
C# G# C# F# A# D#
[Intro] Whole song is clean guitar
-|--------------------------------------------------------------------------|-
-|--------------------------------------------------------------------------|-
-|--------------------------------------------------------------------------|-
-|--3-3--6--5--4--3---------------------------------------------------------|-
-|--------------------------------------------------------------------------|-
-|--------------------------------------------------------------------------|-
Play 6 times
[Verse]
-|--------------------------------------------------------------------------|-
-|--------------------------------------------------------------------------|-
-|--------------------------------------------------------------------------|-
-|--3-3-----1--4--1---------------------------------------------------------|-
-|-------4------------------------------------------------------------------|-
-|--------------------------------------------------------------------------|-
Play 8 times
[Chorus]
-|--------------------------------------------------------------------------|-
-|--------------------------------------------------------------------------|-
-|--------------------------------------------------------------------------|-
-|--3-3--6--5--4--3---------------------------------------------------------|-
-|--------------------------------------------------------------------------|-
-|--------------------------------------------------------------------------|-
Play twice.
[Verse]
-|--------------------------------|-----------------------------------------|-
-|--------------------------------|-----------------------------------------|-
-|--------------------------------|-----------------------------------------|-
-|--3-3-----1--4--1--3-3-----1--4-|--3-3-----1--4--1------------------------|-
-|-------4----------------4-------|-------4---------------------------------|-
-|--------------------------------|-----------------------------------------|-
Play 6 times.
[Chorus]
-|--------------------------------------------------------------------------|-
-|--------------------------------------------------------------------------|-
-|--------------------------------------------------------------------------|-
-|--3-3--6--5--4--3---------------------------------------------------------|-
-|--------------------------------------------------------------------------|-
-|--------------------------------------------------------------------------|-
Play 4 times.
[Chorus]
-|--------------------------------------------------------------------------|-
-|--------------------------------------------------------------------------|-
-|--------------------------------------------------------------------------|-
-|--3-3--6--5--4--3---------------------------------------------------------|-
-|--------------------------------------------------------------------------|-
-|--------------------------------------------------------------------------|-
Play 4 times.


ВВЕРХ

Назад


Новости Информация Скачать Форум Магазин Фотогалерея Архив О сайте Ссылки Linkin Park Dead By Sunrise Projekt Revolution 8-bit Rebellion Магазин дисков Street Team Группы ВКонтакте