In The End // Гитара

01.05.2008
Dropped D, Down 1/2 Step
Piano Intro:
Eb|----------------------------------|
Bb|----------------------------------|
F#|----------------------------------|
C#|-----9---9-----5---4--4--4---4-5--|
G#|--7-------------------------------|
C#|----------------------------------|
Verses: (All natural harmonics)
Eb|------------------(7)-----------------------(12)--|
Bb|---------(7)-----------------------(5)------------|
F#|--(5)---------------------(5)---------------------|
C#|--------------------------------------------------|
G#|--------------------------------------------------|
C#|--------------------------------------------------|
Chorus:
Eb|------------------------------------------------------|
Bb|------------------------------------------------------|
F#|--------------7-----5------------------7-----5--------|
C#|--2-----5-----7-----5---0--2-----5-----7-----5-----0--|
G#|--2-----5-----5-----3---0--2-----5-----5-----3-----0--|
C#|--2-----5-----0---------0--2-----5-----0-----------0--|


ВВЕРХ

Назад

Новости Информация Скачать Форум Магазин Фотогалерея Архив О сайте Ссылки Linkin Park Dead By Sunrise Projekt Revolution 8-bit Rebellion Магазин дисков Street Team Группы ВКонтакте