Lying From You // Гитара

01.05.2008
Half step down tune
Intro
e|| ---------------------------------.||
B|| ---------------------------------.||
G||.-----------5--7-6-5--8-7-6-5-----.|| 2 times
D||.-----------5--7-6-5--8-7-6-5--4--.||
A|| -----------3--5-4-3--6-5-4-3--4--.||
E|| -x-x-x-x---3--5-4-3--6-5-4-3--2--.||
Main
(When I pretend,
everything is what I want it be...)
3 times last time
e|| ---------------------------------|--------------------------------- ||
B|| ---------------------------------|--------------------------------- ||
G||.--7-7-------------------5-5-5-5--|--7-7----------------------------.||
D||.--7-7-----------3-3-----5-5-5-5--|--7-7------------3-3-3---5-5-5-5-.||
A|| --5-5-----------3-3-----3-3-3-3--|--5-5------------3-3-3---5-5-5-5- ||
E|| --5-5-----------1-1-----3-3-3-3--|--5-5------------1-1-1---3-3-3-3- ||
Chorus
(You...I wanna be close beside so let me go...)
2 times
e|| ---------------------------------|--------------------------------- ||
B|| ---------------------------------|--------------------------------- ||
G||.--7-7----------------------5-5-5-|--3-3----------------------5-5-5-.||
D||.--7-7----------------3-----5-5-5-|--3-3---------------5------5-5-5-.||
A|| --5-5--7777-3333-55--3-----3-3-3-|--1-1--7777-3333-55-5------3-3-3- ||
E|| --5-5----------------1-----3-3-3-|--1-1---------------3------3-3-3- ||
Bridge
(This isn_t what I wanted to be,
I never thought what I said would have you running from me...)
8 times
e|| ------------------------.||
B|| ------------------------.||
G||.--5--7-6-5--8-7-6-5-----.||
D||.--5--7-6-5--8-7-6-5--4--.||
A|| --3--5-4-3--6-5-4-3--4--.||
E|| --3--5-4-3--6-5-4-3--2--.||
Chorus


ВВЕРХ

Назад

Новости Информация Скачать Форум Магазин Фотогалерея Архив О сайте Ссылки Linkin Park Dead By Sunrise Projekt Revolution 8-bit Rebellion Магазин дисков Street Team Группы ВКонтакте