Numb // Гитара

01.05.2008
Intro (part 1)
D||-10-13-10-15-18-17---------|
A||---------------------------|
F||---------------------------|
C||---------------------------|
G||---------------------------|
C||---------------------------|
Intro (part 2)
D||-10-13-10-18-17-13---------|
A||---------------------------|
F||---------------------------|
C||---------------------------|
G||---------------------------|
C||---------------------------|
Verse (part 1)
D||---------------------------|
A||---------------------------|
F||---------------------------|
C||-5---1---8---3-------------|
G||-5---1---8---3-------------|
C||-5---1---8---3-------------|
Verse (part 2)
D||----10-----10-----10-----10----|
A||-------------------------------|
F||-------------------------------|
C||-5------1------8------3--------|
G||-5------1------8------3--------|
C||-5------1------8------3--------|


ВВЕРХ

Назад

Новости Информация Скачать Форум Магазин Фотогалерея Архив О сайте Ссылки Linkin Park Dead By Sunrise Projekt Revolution 8-bit Rebellion Магазин дисков Street Team Группы ВКонтакте