One Step Closer // Гитара

01.05.2008
Dropped D, Down 1/2 Step
Intro:
Eb|------------------------|
Bb|------------------------|
Gb|------------------------|
Db|------------------------|
Ab|-----------(7)----------|
Db|--0-(5)-0-----8-7--0-3--|
Verses:
Eb|------------------------|
Bb|------------------------|
Gb|---------7---------5----|
Db|--0-0--0-x---8-7---x----|
Ab|--0-0--0-5---8-7---3----|
Db|--0-0--0-----8-7-0------|
Bridge 1
Eb|---------------------------------------------------------------|
Bb|---------------------------------------------------------------|
Gb|---------------------------------------------------------------|
Db|--5-5---x-x---x-5-5---x-x---x-5-5--x-x---x---------------------|
Ab|--5-5---x-x---x-5-5---x-x---x-5-5--x-x---x---------------------|
Db|--5-5---x-x---x-5-5---x-x---x-5-5--x-x---x---------------------|
Bridge 2:
Eb|-----------------------------------(5)--------(5)-|
Bb|--------------------------------------(5)-(5)-----|
Gb|--------------------------------------------------|
Db|--5-5---x-x---x-5-5---x-x---x-5-5-----------------|
Ab|--5-5---x-x---x-5-5---x-x---x-5-5-----------------|
Db|--5-5---x-x---x-5-5---x-x---x-5-5-----------------|
Chorus
Eb|--------------------------------------------------------------|
Bb|--------------------------------------------------------------|
Gb|--------------------------------------------------------------|
Db|--0--0--12-12--10-10--7---8-8--5-5--7-7--3-3---1-1-1-1-1-1-1--|
Ab|--0--0--12-12--10-10--7---8-8--5-5--7-7--3-3---1-1-1-1-1-1-1--|
Db|--0--0--12-12--10-10--7---8-8--5-5--7-7--3-3---1-1-1-1-1-1-1--|
Other Part
Eb|-------------------------------------------|
Bb|-------------------------------------------|
Gb|-------------------------------------------|
Db|--1-0---0-0---0---1-3-0-0--6\------0-0-0---|
Ab|--1-0---0-0---0---1-3-0-0--6\------0-0-0---|
Db|--1-0---0-0---0---1-3-0-0--6\------0-0-0---|
PM......


ВВЕРХ

Назад

Новости Информация Скачать Форум Магазин Фотогалерея Архив О сайте Ссылки Linkin Park Dead By Sunrise Projekt Revolution 8-bit Rebellion Магазин дисков Street Team Группы ВКонтакте