Part Of Me // Гитара

30.04.2008
A ^ under tab means palm mute.
Tuning: D-A-D-G-B-E
E----------------------------------
B----------------------------------
G----------------------------------
D----------------------------------
A------------7-7-------7-7-7-7--7--
D--6-6--6-6-------6-6--------------
^ ^ ^ ^ ^ ^ ^ ^ ^ ^ ^ ^ ^
“Part of me won't go away…”
E---------------------------------------------------------------------
B---------------------------------------------------------------------
G---------------------------------------------------------------------
D--6---6---6---6---9---9---4---4-----6---6---6---6---8---8---4---4----
A----6---6---6---6---7---7---4---4-----6---6---6---6---6---6---4---4--
D---------------------------------------------------------------------
“Cut myself free willingly…”
E-------------------------------------------
B-------------------------------------------
G-------------------------------------------
D--2--1----2--1----2--1----2--1--x-x--2--4--
A--2--1----2--1----2--1----2--1--x-x--2--4--
D--2--1----2--1----2--1----2--1--x-x--2--4--
“I feel it everyday…”
E------------------------------------------------------------------------------
B------------------------------------------------------------------------------
G-------------9-9---------9-9-9-9--9-------------11-11---------11-11-11-11-11--
D--6-6--6-6---9-9---6-6---9-9-9-9--9--6-6--6-6---11-11---6-6---11-11-11-11-11--
A--6-6--6-6---7-7---6-6---7-7-7-7--7--6-6--6-6---9--9----6-6---9--9--9--9--9---
D--6-6--6-6---------6-6---------------6-6--6-6-----------6-6-------------------
“Alive of me, inside of me…”
E-------------------------------------------------
B-------------------------------------------------
G--8-8--8-8--9-8-------8--8-8--8-8--8-8--8-8--11--
D--8-8--8-8--9-8---9-8-8--8-8--8-8--8-8--8-8--11--
A--6-6--6-6--7-6---9-8-6--7-7--7-7--7-7--7-7--9---
D------------------9-8----------------------------
+ + + + + + + + + + + + + + + + + + + + + + + + + + + + + + + + + + + +
Tuning: C#-G#-C#-F#-Bb-Eb
Eb----------------------------------
Bb----------------------------------
F#----------------------------------
C#----------------------------------
G#------------8-8-------8-8-8-8--8--
C#--7-7--7-7-------7-7--------------
^ ^ ^ ^ ^ ^ ^ ^ ^ ^ ^ ^ ^
“Part of me won't go away…”
Eb-----------------------------------------------------------------------
Bb-----------------------------------------------------------------------
F#-----------------------------------------------------------------------
C#--7---7---7---7---10---10---5---5-----7---7---7---7---9---9---5---5----
G#----7---7---7---7----8----8---5---5-----7---7---7---7---7---7---5---5--
C#-----------------------------------------------------------------------
“Cut myself free willingly…”
Eb-------------------------------------------
Bb-------------------------------------------
F#-------------------------------------------
C#--3--2----3--2----3--2----3--2--x-x--3--5--
G#--3--2----3--2----3--2----3--2--x-x--3--5--
C#--3--2----3--2----3--2----3--2--x-x--3--5--
“I feel it everyday…”
Eb--------------------------------------------------------------------------------------
Bb--------------------------------------------------------------------------------------
F#-------------10-10---------10-10-10-10--10-------------12-12---------12-12-12-12--12--
C#--7-7--7-7---10-10---7-7---10-10-10-10--10--7-7--7-7---12-12---7-7---12-12-12-12--12--
G#--7-7--7-7---8--8----7-7---8-8-8-8--8---8---7-7--7-7---10-10---7-7---10-10-10-10--10--
C#--7-7--7-7-----------7-7--------------------7-7--7-7-----------7-7--------------------
“Alive of me, inside of me…”
Eb-----------------------------------------------------------
Bb-----------------------------------------------------------
F#--9-9--9-9--10-9--------9--10-10--10-10--10-10--10-10--12--
C#--9-9--9-9--10-9---10-9-9--10-10--10-10--10-10--10-10--12--
G#--7-7--7-7--8--7---10-9-7--8--8---8--8---8--8---8--8---10--
C#-------------------10-9------------------------------------
+ + + + + + + + + + + + + + + + + + + + + + + + + + + + + + + + + + + +
Tuning: Standard
E----------------------------------
B----------------------------------
G----------------------------------
D----------------------------------
A------------7-7-------7-7-7-7--7--
E--4-4--4-4-------4-4--------------
^ ^ ^ ^ ^ ^ ^ ^ ^ ^ ^ ^ ^
“Part of me won't go away…”
E---------------------------------------------------------------------
B---------------------------------------------------------------------
G---------------------------------------------------------------------
D--6---6---6---6---9---9---4---4-----6---6---6---6---8---8---4---4----
A----6---6---6---6---7---7---4---4-----6---6---6---6---6---6---4---4--
E---------------------------------------------------------------------
“Cut myself free willingly…”
E-------------------------------------------
B-------------------------------------------
G-------------------------------------------
D--------------------------------x-x--2--4--
A--7--6----7--6----7--6----7--6--x-x--2--4--
E--7--6----7--6----7--6----7--6--x-x--0--2--
“I feel it everyday…”
E------------------------------------------------------------------------------
B------------------------------------------------------------------------------
G-------------9-9---------9-9-9-9--9-------------11-11---------11-11-11-11-11--
D--6-6--6-6---9-9---6-6---9-9-9-9--9--6-6--6-6---11-11---6-6---11-11-11-11-11--
A--6-6--6-6---7-7---6-6---7-7-7-7--7--6-6--6-6---9--9----6-6---9--9--9--9--9---
E--4-4--4-4---------4-4---------------4-4--4-4-----------4-4-------------------
“Alive of me, inside of me…”
E-------------------------------------------------
B-------------------------------------------------
G--8-8--8-8--9-8-------8--8-8--8-8--8-8--8-8--11--
D--8-8--8-8--9-8---9-8-8--8-8--8-8--8-8--8-8--11--
A--6-6--6-6--7-6---9-8-6--7-7--7-7--7-7--7-7--9---
E------------------7-6----------------------------


ВВЕРХ

Назад

Новости Информация Скачать Форум Магазин Фотогалерея Архив О сайте Ссылки Linkin Park Dead By Sunrise Projekt Revolution 8-bit Rebellion Магазин дисков Street Team Группы ВКонтакте