Points Of Authority // Гитара

01.05.2008
Dropped D, Down Step
Intro:
Eb|------7-------7--------7-------7------------|
Bb|----8---8---8---8---8---8---8---8-----------|
F#|--9--------9-------9-------9----------------|
C#|--------------------------------------------|
G#|--------------------------------------------|
C#|--------------------------------------------|
2nd Intro and Verses:
Eb|--------------------------------------------------------|
Bb|--------------------------------------------------------|
F#|--------------------------------------------------------|
C#|--2-2---2h3---3---0h2---2h3---0h2-2---2h3--x-2-x-0-x-3--|
G#|--2-2---2h3---3---0h2---2h3---0h2-2---2h3--x-2-x-0-x-3--|
C#|--2-2---2h3---3---0h2---2h3---0h2-2---2h3--x-2-x-0-x-3--|
Chorus:
Eb|----------------------------------------|
Bb|----------------------------------------|
F#|--4----5----4----5----4----5----4----5--|
C#|--2----3----2----3----2----3----2----3--|
G#|--2----3----2----3----2----3----2----3--|
C#|--2----3----2----3----2----3----2----3--|


ВВЕРХ

Назад

Новости Информация Скачать Форум Магазин Фотогалерея Архив О сайте Ссылки Linkin Park Dead By Sunrise Projekt Revolution 8-bit Rebellion Магазин дисков Street Team Группы ВКонтакте