Pushing Me Away // Гитара

01.05.2008
Dropped D, Down 1/2 Step
Intro/Verses:
Eb|(12)------------|------(12)------|---------------|----------------|
Bb|-------(12)-----|---(7)-----(12)-|------(12)-----|(12)---(7)------|
F#|----(7)---------|(5)-------------|---(7)---------|-----------(7)--|
C#|----------------|----------------|(7)------------|----(7)---------|
G#|------------(7)-|----------------|-----------(7)-|----------------|
C#|----------------|----------------|---------------|----------------|
N.H.
Throughout................................................................................
.........................................................................
Chorus 1:
Eb|----------------------------------------------------------------------------|
Bb|----------------------------------------------------------------------------|
Gb|---------------------5--5--5-5--5-5---5-5----------------------2---2--2-4---|
Db|2--2--2-2--2-2---2-2-5--5--5-5--5-5---5-5-5---5--5-5--5-5--5-5-2---2--2-4--0|
Ab|2--2--2-2--2-2---2-2-3--3--3-3--3-3---3-3-5---5--5-5--5-5--5-5-0---0--0-2--0|
Db|2--2--2-2--2-2---2-2----------------------5---5--5-5--5-5--5-5-------------0|
Chorus 2:
Eb|----------------------------------------------------------------------------|
Bb|----------------------------------------------------------------------------|
F#|5--5--5-5--5-5--5-5-7--7--7-7--7-7---7-7-2---2---2-2--2-2---2-2------------5|
C#|5--5--5-5--5-5--5-5-7--7--7-7--7-7---7-7-2---2---2-2--2-2---2-2-4--4--4-5--5|
G#|3--3--3-3--3-3--3-3-5--5--5-5--5-5---5-5-0---0---0-0--0-0---0-0-4--4--4-5--2|
C#|----------------------------------------------------------------4--4--4-5---|


ВВЕРХ

Назад

Новости Информация Скачать Форум Магазин Фотогалерея Архив О сайте Ссылки Linkin Park Dead By Sunrise Projekt Revolution 8-bit Rebellion Магазин дисков Street Team Группы ВКонтакте