Runaway // Гитара

01.05.2008
7 String Arranged For A 6 String
Intro:
C#|-----------------------------------------------------------|
G#|-----------------------------------------------------------|
E|--7---7-7-10---10-10--10---10-10-3---3-3-5---5-5--5---5-5--|
B|--7---7-7-10---10-10--10---10-10-3---3-3-5---5-5--5---5-5--|
F#|--5---5-5--8----8--8---8----8--8-1---1-1-3---3-3--3---3-3--|
B|-----------------------------------------------------------|
Chorus:
C#|-----------------------------------------------------------------|
G#|-----------------------------------------------------------------|
E|----------10---10-10--10---10-10---------------------------------|
B|0---0-0---10---10-10--10---10-10-8---8-8-10---10-10--10---10-10--|
F#|0---0-0---8----8---8---8----8--8-8---8-8-10---10-10--10---10-10--|
B|0---0-0--------------------------8---8-8-10---10-10--10---10-10--|
Verses:
C#|-------------------------------------------------------------|
G#|-------------------------------------------------------------|
E|-------------------------------------------------------------|
B|*12-*12-*12-*12-*12-*12-*12-*12-*12-*12-*12-*12-10-10-10-10--|
F#|-------------------------------------------------------------|
B|-------------------------------------------------------------|
PM.............................................
Bridge 2:
C#|---------------------------------------|
G#|---------------------------------------|
E|---------------------------------------|
B|--0---0-0-1-0-0-0---0-0-0-1------------|
F#|--0---0-0-1-0-0-0---0-0-0-1------------|
B|--0---0-0-1-0-0-0---0-0-0-1------------|


ВВЕРХ

Назад

Новости Информация Скачать Форум Магазин Фотогалерея Архив О сайте Ссылки Linkin Park Dead By Sunrise Projekt Revolution 8-bit Rebellion Магазин дисков Street Team Группы ВКонтакте