Somewhere I Belong // Гитара

01.05.2008
Tuning: half step down, Drop-D.
(Low to High) Db Ab Db Gb Bb Eb
a.k.a. C# G# C# F# A# D#
Intro
Gtr 1 (clean w/ a backward loop effect)
(Rhythm Fig. 1)
Eb||--------------------------|
Bb||o-(3)--------------------o|
Gb||---4-----4-----6-----4----| repeat 2x
Db||---4-----5-----7----------|
Ab||o--------------------5---o|
Db||--------------------------|
Gtr 2 (clean)
(Rhy. Fig. 2), Gtr 1 plays Fig. 1 two times
|---------5-----------5----|
|o-5-7--7---7--5-7--7---7-o|
|--------------------------| 4x
|--------------------------|
|o------------------------o|
|--------------------------|
Gtr 3 (w/ distortion) on last repeat
|--------------------------|
|--------------------------|
|-4+=======================|
|-x+===volume swell========|
|-2+=======================|
|--------------------------|
Gtr 3 1.__________________ 2.___________________
|---------------------|--------------------|---------------------|
|o-------------------o|--------------------|---------------------|
|---------------------|--------------------|---------------------|
|-4-4-4-4-4-0-0-0-0-0-|5-5-5-5-5-2-2-2-2-2-|-7-7-7-7-7-2-2-2-2-2-|
|o2-2-2-2-2-0-0-0-0-0o|5-5-5-5-5-2-2-2-2-2-|-7-7-7-7-7-2-2-2-2-2-|
|-4-4-4-4-4-0-0-0-0-0-|5-5-5-5-5-2-2-2-2-2-|-7-7-7-7-7-2-2-2-2-2-|
Gtr 4 (w/ dist.) 1.__________________ 2._________________(Fill 1)
|---------------------|--------------------|---------------------|---|
|o-------------------o|--------------------|---------------------|---|
|-8-8-8-8-8-9-9-9-9-9-|1111111111-9-9-9-9-9|-6-6-6-6-6-4-4-4-4-4-|-4=|
|-x-x-x-x-x-x-x-x-x-x-|x-x-x-x-x--x-x-x-x-x|-x-x-x-x-x-x-x-x-x-x-|-x-|
|o6-6-6-6-6-7-7-7-7-7o|9-9-9-9-9--7-7-7-7-7|-4-4-4-4-4-2-2-2-2-2-|-2=|
|---------------------|--------------------|---------------------|---|
Pre-Verse
Gtr 1 w/ Fig. 1 one time
Gtr 4 w/ Fill 1
Verse 1
Gtr 1 w/ Fig 1 four times
Gtr 2 w/ Fig 2 eight times
Pre-Chorus
Gtr 3 (Fill 2)
|-------|-------|
|-------|-------|
|-------|-------| [*all natural harmonics] (lay finger over fretbar w/o pushing down)
|-[44444|44444]-| d = downstroke
|-[44444|44444]-| u = upstroke
|-[44444|44444]-|
dudud ududu
*Note: These harmonics can also be performed at the 9th fret*
Chorus (Rhy. Fig. 3)
Gtr 3 1.,2.,3.____________ 4.___________________
|---------------------|--------------------|---------------------|
|o-------------------o|--------------------|---------------------|
|---------------------|--------------------|---------------------|
|-4-4-4-4-4-0-0-0-0-0-|5-5-5-5-5-2-2-2-2-2-|-7-7-7-7-7-2-2-2-2-2-|
|o2-2-2-2-2-0-0-0-0-0o|5-5-5-5-5-2-2-2-2-2-|-7-7-7-7-7-2-2-2-2-2-|
|-4-4-4-4-4-0-0-0-0-0-|5-5-5-5-5-2-2-2-2-2-|-7-7-7-7-7-2-2-2-2-2-|
Gtr 4 1.,2.,3.____________ 4.___________________
|---------------------|--------------------|---------------------|
|o-------------------o|--------------------|---------------------|
|-8-8-8-8-8-9-9-9-9-9-|1111111111-9-9-9-9-9|-6-6-6-6-6-4-4-4-4-4-|
|-x-x-x-x-x-x-x-x-x-x-|x-x-x-x-x--x-x-x-x-x|-x-x-x-x-x-x-x-x-x-x-|
|o6-6-6-6-6-7-7-7-7-7o|9-9-9-9-9--7-7-7-7-7|-4-4-4-4-4-2-2-2-2-2-|
|---------------------|--------------------|---------------------|
Verse 2
Gtr 1 w/ Fig 1 four times
Gtr 2 w/ Fig 2 eight times
Pre-Chorus
Gtr 3 w/ half of Fill 2
Chorus
Gtr 3 and Gtr 4 w/ Fig. 3
Bridge
Gtr 3 and Gtr 4 (Rhy. Fig. 4)
|------------------------------------------------------------|
|o----------------------------------------------------------o|
|--------11-11----------11-11----------11-11----------6/7*-| 2x
|--9---9-x--x-----5---5-x--x-----7---7-x--x-----2---2-x------|
|o-9---9-9--9-----5---5-9--9-----7---7-9--9-----2---2-4/5*o|
|--9---9----------5---5----------7---7----------2---2--------|
*slide without restrumming
|-----------------------------------------------------------|
|-----------------------------------------------------------|
|-------11-11----------14-14----------11-11----------6/7*-|
|-9---9-x--x-----5---5-x--x-----7---7-x--x-----2---2-x------|
|-9---9-9--9-----5---5-12-12----7---7-9--9-----2---2-4/5*-|
|-9---9----------5---5----------7---7----------2---2--------|
Gtr 3 w/ Fig. 4 one time ending with Fill 1 over Gtr 1 w/ Fig. 1
Gtr 3 w/ Fill 2
Outro Chorus
Gtr 3 and Gtr 4 w/ Fig. 3 twice
Outro
Gtr 3 3x
|----------------------------|---------------|||
|o--------------------------o|---------------|||
|----------------------------|---------------|||
|--4-4-4-4-4-4-4--[4-4-4-4]--|-4-4-4-4-4-4-4-|||
|o-2-2-2-2-2-2-2--[4-4-4-4]-o|-2-2-2-2-2-2-2-|||
|--4-4-4-4-4-4-4--[4-4-4-4]--|-4-4-4-4-4-4-4-|||
d u d u


ВВЕРХ

Назад

Новости Информация Скачать Форум Магазин Фотогалерея Архив О сайте Ссылки Linkin Park Dead By Sunrise Projekt Revolution 8-bit Rebellion Магазин дисков Street Team Группы ВКонтакте