Step Up // Гитара

30.04.2008
A ^ under tab means palm mute.
Tuning: D-A-D-G-B-E
E---------------------------------------------
B--9-9-9--7--9--------------------------------
G---------------9--6-6--9--8-8----------------
D--------------------------------8-9--6-/-13--
A---------------------------------------------
D---------------------------------------------
E--------------------------------------------
B--------------------------------------------
G--------------------------------------------
D--6-7-/-14-13-----6-7-/-13-----6-7-/-14-13--
A--------------------------------------------
D--------------------------------------------
“Using the waves of sound…”
E---------------------------------
B---------------------------------
G---------------------------------
D--6-6--6--6-6--6--7-7-7--7-7--9--
A--6-6--6--6-6--6--7-7-7--7-7--9--
D--6-6--6--6-6--6--7-7-7--7-7--9--
“Who can rock a rhyme like this…”
E------------------------------------------------------
B------------------------------------------------------
G-----9-9--8-8---6---------------9-9--8-8--------------
D--6--9-9--8-8---6--4-4-4-----6--9-9--8-8----7--9-9-9--
A--6--7-7--6-6---4--4-4-4-----6--7-7--6-6----7--9-9-9--
D--6----------------4-4-4-----6--------------7--9-9-9--
When drums stop:
E-----------------------------------------
B-----------------------------------------
G-----------------------------------------
D--------6-----4--------------6-----4-----
A-----6-----6-----6--------6-----6-----6--
D--6--------------------7-----------------
When Chester starts humming:
E--------------------------------
B--------------------------------
G--------------------------------
D-----------6--7--6-----6--7--6--
A--6-----6-----------6-----------
D-----6--------------------------
+ + + + + + + + + + + + + + + + + + + + + + + + + + + + + + + + + + + +
Tuning: C#-G#-C#-F#-Bb-Eb
Eb--------------------------------------------------
Bb--10-10-10--8--10---------------------------------
F#------------------10--7-7--10--9-9----------------
C#------------------------------------9-10--7-/-14--
G#--------------------------------------------------
C#--------------------------------------------------
Eb-----------------------------------------------
Bb-----------------------------------------------
F#-----------------------------------------------
C#--9-10-/-15-14-----9-10-/-14-----9-10-/-15-14--
G#-----------------------------------------------
C#-----------------------------------------------
“Using the waves of sound…”
Eb----------------------------------
Bb----------------------------------
F#----------------------------------
C#--7-7--7--7-7--7--8-8-8--8-8--10--
G#--7-7--7--7-7--7--8-8-8--8-8--10--
C#--7-7--7--7-7--7--8-8-8--8-8--10--
“Who can rock a rhyme like this…”
Eb-------------------------------------------------------------
Bb-------------------------------------------------------------
F#-----10-10--9-9---7---------------10-10--9-9-----------------
C#--7--10-10--9-9---7--5-5-5-----7--10-10--9-9----8--10-10-10--
G#--7--8--8---7-7---5--5-5-5-----7--8--8---7-7----8--10-10-10--
C#--7------------------5-5-5-----7----------------8--10-10-10--
When drums stop:
Eb-----------------------------------------
Bb-----------------------------------------
F#-----------------------------------------
C#--------7-----5--------------7-----5-----
G#-----7-----7-----7--------7-----7-----7--
C#--7--------------------8-----------------
When Chester starts humming:
Eb--------------------------------
Bb--------------------------------
F#--------------------------------
C#-----------7--8--7-----7--8--7--
G#--7-----7-----------7-----------
C#-----7--------------------------
+ + + + + + + + + + + + + + + + + + + + + + + + + + + + + + + + + + + +
Tuning: Standard
E---------------------------------------------
B--9-9-9--7--9--------------------------------
G---------------9--6-6--9--8-8----------------
D--------------------------------8-9--6-/-13--
A---------------------------------------------
E---------------------------------------------
E--------------------------------------------
B--------------------------------------------
G--------------------------------------------
D--8-9-/-14-13-----8-9-/-13-----8-9-/-14-13--
A--------------------------------------------
E--------------------------------------------
“Using the waves of sound…”
E---------------------------------
B---------------------------------
G---------------------------------
D--6-6--6--6-6--6--7-7-7--7-7--9--
A--6-6--6--6-6--6--7-7-7--7-7--9--
E--4-4--4--4-4--4--5-5-5--5-5--7--
“Who can rock a rhyme like this…”
E------------------------------------------------------
B------------------------------------------------------
G-----9-9--8-8---6---------------9-9--8-8--------------
D--6--9-9--8-8---6--4-4-4-----6--9-9--8-8----7--9-9-9--
A--6--7-7--6-6---4--4-4-4-----6--7-7--6-6----7--9-9-9--
E--4----------------2-2-2-----4--------------5--7-7-7--
When drums stop:
E-----------------------------------------
B-----------------------------------------
G-----------------------------------------
D--------6-----4--------------6-----4-----
A-----6-----6-----6--------6-----6-----6--
E--4--------------------5-----------------
When Chester starts humming:
E--------------------------------
B--------------------------------
G--------------------------------
D-----------6--7--6-----6--7--6--
A--6-----6-----------6-----------
E-----4--------------------------


ВВЕРХ

Назад

Новости Информация Скачать Форум Магазин Фотогалерея Архив О сайте Ссылки Linkin Park Dead By Sunrise Projekt Revolution 8-bit Rebellion Магазин дисков Street Team Группы ВКонтакте