With You // Гитара

01.05.2008
Seven String Arranged For A Six String
(B,F#,B,E,G#,C#)
Intro/Pre Chorus: BASS
C#|--------------------------------|
G#|--------------------------------|
E |--------------------------------|
B |--------------------------------|
F#|--------------------------------|
B |---55--55--55--55---------------|
VERSE
C#|--------------------------------------|
G#|--------------------------------------|
E |---------------------2--------------|
B |--0--0-0-1--000000--------------------|
F#|--0--0-0-1--000000--------------------|
B |--0--0-0-1--000000--------------------|
Verses:
C#|------------------------------------------------|
G#|---20---19------------------------20--------19--|
E |--------------19---16-------16--------12--------|
B |------------------------------------------------|
F#|------------------------------------------------|
B |------------------------------------------------|
Chorus:
C#|--------------------------------------|
G#|--------------------------------------|
E |---7---7---10--5----------------------|
B |---5---X---8---3----------------------|
F#|---5---5---8---3----------------------|
B |---5---0---8---3----------------------|
-------------------------


ВВЕРХ

Назад

Новости Информация Скачать Форум Магазин Фотогалерея Архив О сайте Ссылки Linkin Park Dead By Sunrise Projekt Revolution 8-bit Rebellion Магазин дисков Street Team Группы ВКонтакте